ISO-10303-21;
HEADER;
FILE_DESCRIPTION (( 'STEP AP203' ),
    '1' );
FILE_NAME ('BK7-NPBSC-10-900-1200.STEP',
    '2020-12-22T02:09:50',
    ( '' ),
    ( '' ),
    'SwSTEP 2.0',
    'SolidWorks 2020',
    '' );
FILE_SCHEMA (( 'CONFIG_CONTROL_DESIGN' ));
ENDSEC;

DATA;
#1 = LINE ( 'NONE', #118, #52 ) ;
#2 = AXIS2_PLACEMENT_3D ( 'NONE', #203, #280, #264 ) ;
#3 = APPROVAL ( #190, 'UNSPECIFIED' ) ;
#4 = PERSON_AND_ORGANIZATION_ROLE ( 'design_supplier' ) ;
#5 = LINE ( 'NONE', #129, #223 ) ;
#6 = PRODUCT_RELATED_PRODUCT_CATEGORY ( 'detail', '', ( #184 ) ) ;
#7 = LINE ( 'NONE', #236, #252 ) ;
#8 = CARTESIAN_POINT ( 'NONE',  ( -5.000000000000000888, -4.999999999999998224, 5.000000000000000000 ) ) ;
#9 = CARTESIAN_POINT ( 'NONE',  ( 0.000000000000000000, 0.000000000000000000, -5.000000000000000000 ) ) ;
#10 = ORIENTED_EDGE ( 'NONE', *, *, #255, .T. ) ;
#11 = VECTOR ( 'NONE', #204, 1000.000000000000000 ) ;
#12 = EDGE_CURVE ( 'NONE', #180, #88, #237, .T. ) ;
#13 = VERTEX_POINT ( 'NONE', #183 ) ;
#14 = VERTEX_POINT ( 'NONE', #60 ) ;
#15 = ORIENTED_EDGE ( 'NONE', *, *, #76, .F. ) ;
#16 = PERSON_AND_ORGANIZATION ( #106, #101 ) ;
#17 = DIRECTION ( 'NONE',  ( -0.7071067811865475727, -0.7071067811865474617, 0.000000000000000000 ) ) ;
#18 = DIRECTION ( 'NONE',  ( 1.734723475976807094E-16, 1.000000000000000000, -0.000000000000000000 ) ) ;
#19 = APPROVAL_DATE_TIME ( #136, #207 ) ;
#20 = DIRECTION ( 'NONE',  ( 1.000000000000000000, -4.857225732735059864E-17, 0.000000000000000000 ) ) ;
#21 = LINE ( 'NONE', #96, #259 ) ;
#22 = PERSON_AND_ORGANIZATION ( #106, #101 ) ;
#23 = DIRECTION ( 'NONE',  ( 0.000000000000000000, 1.000000000000000000, 0.000000000000000000 ) ) ;
#24 = PERSON_AND_ORGANIZATION ( #106, #101 ) ;
#25 = ORIENTED_EDGE ( 'NONE', *, *, #117, .T. ) ;
#26 = EDGE_CURVE ( 'NONE', #32, #180, #99, .T. ) ;
#27 = ADVANCED_FACE ( 'NONE', ( #179 ), #290, .F. ) ;
#28 = CARTESIAN_POINT ( 'NONE',  ( -5.000000000000000888, -4.999999999999998224, 5.000000000000000000 ) ) ;
#29 = VECTOR ( 'NONE', #230, 1000.000000000000000 ) ;
#30 = CARTESIAN_POINT ( 'NONE',  ( -4.999999999999999112, -5.000000000000000000, 5.000000000000000000 ) ) ;
#31 = CARTESIAN_POINT ( 'NONE',  ( 5.000000000000000888, -5.000000000000000000, 5.000000000000000000 ) ) ;
#32 = VERTEX_POINT ( 'NONE', #83 ) ;
#33 = VERTEX_POINT ( 'NONE', #205 ) ;
#34 = ORIENTED_EDGE ( 'NONE', *, *, #126, .F. ) ;
#35 = APPROVAL_ROLE ( '' ) ;
#36 = DIRECTION ( 'NONE',  ( 0.000000000000000000, -0.000000000000000000, 1.000000000000000000 ) ) ;
#37 = ORIENTED_EDGE ( 'NONE', *, *, #61, .F. ) ;
#38 = APPLICATION_PROTOCOL_DEFINITION ( 'international standard', 'config_control_design', 1994, #82 ) ;
#39 = CARTESIAN_POINT ( 'NONE',  ( 5.000000000000000888, 5.000000000000001776, 5.000000000000000000 ) ) ;
#40 = PERSON_AND_ORGANIZATION ( #106, #101 ) ;
#41 = PRODUCT_DEFINITION_FORMATION_WITH_SPECIFIED_SOURCE ( 'ANY', '', #184, .NOT_KNOWN. ) ;
#42 = LINE ( 'NONE', #169, #234 ) ;
#43 = DIRECTION ( 'NONE',  ( -1.000000000000000000, 1.734723475976807094E-16, 0.000000000000000000 ) ) ;
#44 = CC_DESIGN_PERSON_AND_ORGANIZATION_ASSIGNMENT ( #16, #160, ( #184 ) ) ;
#45 = DIRECTION ( 'NONE',  ( 2.220446049250313081E-16, 1.000000000000000000, 0.000000000000000000 ) ) ;
#46 = DATE_AND_TIME ( #163, #150 ) ;
#47 = PLANE ( 'NONE',  #147 ) ;
#48 = COORDINATED_UNIVERSAL_TIME_OFFSET ( 8, 0, .AHEAD. ) ;
#49 = DATE_AND_TIME ( #198, #287 ) ;
#50 = EDGE_LOOP ( 'NONE', ( #90, #135, #64, #272 ) ) ;
#51 = CC_DESIGN_PERSON_AND_ORGANIZATION_ASSIGNMENT ( #100, #4, ( #41 ) ) ;
#52 = VECTOR ( 'NONE', #20, 1000.000000000000000 ) ;
#53 = PLANE ( 'NONE',  #149 ) ;
#54 = DIRECTION ( 'NONE',  ( 0.000000000000000000, 0.000000000000000000, 1.000000000000000000 ) ) ;
#55 = LINE ( 'NONE', #215, #178 ) ;
#56 = MANIFOLD_SOLID_BREP ( 'Í¹Ì¨-À', #227 ) ;
#57 = ADVANCED_FACE ( 'NONE', ( #189 ), #251, .F. ) ;
#58 = ORIENTED_EDGE ( 'NONE', *, *, #117, .F. ) ;
#59 = ADVANCED_FACE ( 'NONE', ( #253 ), #161, .T. ) ;
#60 = CARTESIAN_POINT ( 'NONE',  ( 5.000000000000000888, -5.000000000000000000, 5.000000000000000000 ) ) ;
#61 = EDGE_CURVE ( 'NONE', #187, #157, #55, .T. ) ;
#62 = CC_DESIGN_APPROVAL ( #3, ( #298 ) ) ;
#63 = CARTESIAN_POINT ( 'NONE',  ( 5.000000000000000888, 5.000000000000001776, -5.000000000000000000 ) ) ;
#64 = ORIENTED_EDGE ( 'NONE', *, *, #276, .T. ) ;
#65 = DIRECTION ( 'NONE',  ( 1.000000000000000000, 0.000000000000000000, 0.000000000000000000 ) ) ;
#66 = DIRECTION ( 'NONE',  ( -4.857225732735059864E-17, -1.000000000000000000, 0.000000000000000000 ) ) ;
#67 = VECTOR ( 'NONE', #211, 1000.000000000000000 ) ;
#68 = LINE ( 'NONE', #171, #80 ) ;
#69 = LOCAL_TIME ( 10, 9, 50.00000000000000000, #263 ) ;
#70 = CARTESIAN_POINT ( 'NONE',  ( 0.000000000000000000, 0.000000000000000000, 5.000000000000000000 ) ) ;
#71 = CARTESIAN_POINT ( 'NONE',  ( 0.000000000000000000, 0.000000000000000000, 0.000000000000000000 ) ) ;
#72 = DIRECTION ( 'NONE',  ( 1.000000000000000000, 0.000000000000000000, 0.000000000000000000 ) ) ;
#73 = EDGE_CURVE ( 'NONE', #33, #32, #306, .T. ) ;
#74 = PERSON_AND_ORGANIZATION ( #106, #101 ) ;
#75 = LINE ( 'NONE', #292, #210 ) ;
#76 = EDGE_CURVE ( 'NONE', #200, #180, #176, .T. ) ;
#77 = APPROVAL_DATE_TIME ( #49, #284 ) ;
#78 = CC_DESIGN_PERSON_AND_ORGANIZATION_ASSIGNMENT ( #74, #98, ( #246 ) ) ;
#79 = AXIS2_PLACEMENT_3D ( 'NONE', #138, #154, #107 ) ;
#80 = VECTOR ( 'NONE', #18, 1000.000000000000000 ) ;
#81 = DIRECTION ( 'NONE',  ( 1.000000000000000000, 0.000000000000000000, 0.000000000000000000 ) ) ;
#82 = APPLICATION_CONTEXT ( 'configuration controlled 3d designs of mechanical parts and assemblies' ) ;
#83 = CARTESIAN_POINT ( 'NONE',  ( 5.000000000000000888, 5.000000000000001776, -5.000000000000000000 ) ) ;
#84 = EDGE_LOOP ( 'NONE', ( #302, #37, #86, #127 ) ) ;
#85 = AXIS2_PLACEMENT_3D ( 'NONE', #307, #279, #54 ) ;
#86 = ORIENTED_EDGE ( 'NONE', *, *, #166, .F. ) ;
#87 = ADVANCED_FACE ( 'NONE', ( #277 ), #53, .F. ) ;
#88 = VERTEX_POINT ( 'NONE', #153 ) ;
#89 = ADVANCED_FACE ( 'NONE', ( #305 ), #128, .F. ) ;
#90 = ORIENTED_EDGE ( 'NONE', *, *, #152, .F. ) ;
#91 = ORIENTED_EDGE ( 'NONE', *, *, #266, .T. ) ;
#92 = DIRECTION ( 'NONE',  ( 1.000000000000000000, 0.000000000000000000, 0.000000000000000000 ) ) ;
#93 = LINE ( 'NONE', #240, #95 ) ;
#94 = LINE ( 'NONE', #296, #181 ) ;
#95 = VECTOR ( 'NONE', #268, 1000.000000000000000 ) ;
#96 = CARTESIAN_POINT ( 'NONE',  ( 5.000000000000002665, 5.000000000000000000, 5.000000000000000000 ) ) ;
#97 = MECHANICAL_CONTEXT ( 'NONE', #82, 'mechanical' ) ;
#98 = PERSON_AND_ORGANIZATION_ROLE ( 'classification_officer' ) ;
#99 = LINE ( 'NONE', #63, #170 ) ;
#100 = PERSON_AND_ORGANIZATION ( #106, #101 ) ;
#101 = ORGANIZATION ( 'UNSPECIFIED', 'UNSPECIFIED', '' ) ;
#102 = DESIGN_CONTEXT ( 'detailed design', #114, 'design' ) ;
#103 = DIRECTION ( 'NONE',  ( 2.220446049250313081E-16, 1.000000000000000000, 0.000000000000000000 ) ) ;
#104 = DIRECTION ( 'NONE',  ( -0.000000000000000000, 0.000000000000000000, -1.000000000000000000 ) ) ;
#105 = CARTESIAN_POINT ( 'NONE',  ( -5.000000000000000888, -4.999999999999998224, -5.000000000000000000 ) ) ;
#106 = PERSON ( 'UNSPECIFIED', 'UNSPECIFIED', 'UNSPECIFIED', ('UNSPECIFIED'), ('UNSPECIFIED'), ('UNSPECIFIED') ) ;
#107 = DIRECTION ( 'NONE',  ( 0.7071067811865475727, 0.7071067811865474617, 0.000000000000000000 ) ) ;
#108 = ORIENTED_EDGE ( 'NONE', *, *, #12, .T. ) ;
#109 = VERTEX_POINT ( 'NONE', #134 ) ;
#110 = ORIENTED_EDGE ( 'NONE', *, *, #142, .T. ) ;
#111 = EDGE_LOOP ( 'NONE', ( #10, #233, #133, #309 ) ) ;
#112 = APPROVAL_ROLE ( '' ) ;
#113 = AXIS2_PLACEMENT_3D ( 'NONE', #164, #115, #308 ) ;
#114 = APPLICATION_CONTEXT ( 'configuration controlled 3d designs of mechanical parts and assemblies' ) ;
#115 = DIRECTION ( 'NONE',  ( 0.7071067811865474617, -0.7071067811865475727, 0.000000000000000000 ) ) ;
#116 = CARTESIAN_POINT ( 'NONE',  ( 5.000000000000000888, 5.000000000000001776, 5.000000000000000000 ) ) ;
#117 = EDGE_CURVE ( 'NONE', #13, #235, #5, .T. ) ;
#118 = CARTESIAN_POINT ( 'NONE',  ( 5.000000000000000888, 5.000000000000001776, -5.000000000000000000 ) ) ;
#119 = PERSON_AND_ORGANIZATION ( #106, #101 ) ;
#120 =( NAMED_UNIT ( * ) SI_UNIT ( $, .STERADIAN. ) SOLID_ANGLE_UNIT ( ) );
#121 = FACE_OUTER_BOUND ( 'NONE', #286, .T. ) ;
#122 = DIRECTION ( 'NONE',  ( -1.000000000000000000, 4.857225732735059864E-17, 0.000000000000000000 ) ) ;
#123 = VECTOR ( 'NONE', #192, 1000.000000000000000 ) ;
#124 = CARTESIAN_POINT ( 'NONE',  ( 5.000000000000002665, 5.000000000000000000, 5.000000000000000000 ) ) ;
#125 = CALENDAR_DATE ( 2020, 22, 12 ) ;
#126 = EDGE_CURVE ( 'NONE', #33, #200, #7, .T. ) ;
#127 = ORIENTED_EDGE ( 'NONE', *, *, #151, .T. ) ;
#128 = PLANE ( 'NONE',  #79 ) ;
#129 = CARTESIAN_POINT ( 'NONE',  ( -4.999999999999999112, -5.000000000000000000, -5.000000000000000000 ) ) ;
#130 = DIRECTION ( 'NONE',  ( -0.000000000000000000, -0.000000000000000000, -1.000000000000000000 ) ) ;
#131 = CC_DESIGN_DATE_AND_TIME_ASSIGNMENT ( #222, #247, ( #246 ) ) ;
#132 = APPROVAL_PERSON_ORGANIZATION ( #24, #284, #301 ) ;
#133 = ORIENTED_EDGE ( 'NONE', *, *, #201, .F. ) ;
#134 = CARTESIAN_POINT ( 'NONE',  ( -4.999999999999999112, 5.000000000000001776, 5.000000000000000000 ) ) ;
#135 = ORIENTED_EDGE ( 'NONE', *, *, #225, .F. ) ;
#136 = DATE_AND_TIME ( #241, #69 ) ;
#137 = AXIS2_PLACEMENT_3D ( 'NONE', #9, #228, #65 ) ;
#138 = CARTESIAN_POINT ( 'NONE',  ( 5.000000000000000888, 5.000000000000001776, 5.000000000000000000 ) ) ;
#139 = APPROVAL_PERSON_ORGANIZATION ( #194, #3, #112 ) ;
#140 = PLANE ( 'NONE',  #158 ) ;
#141 = DIRECTION ( 'NONE',  ( -0.7071067811865475727, -0.7071067811865474617, 0.000000000000000000 ) ) ;
#142 = EDGE_CURVE ( 'NONE', #200, #109, #314, .T. ) ;
#143 = PERSON_AND_ORGANIZATION_ROLE ( 'creator' ) ;
#144 = DIRECTION ( 'NONE',  ( -0.7071067811865475727, -0.7071067811865474617, 0.000000000000000000 ) ) ;
#145 = ADVANCED_FACE ( 'NONE', ( #254 ), #177, .F. ) ;
#146 = PLANE ( 'NONE',  #267 ) ;
#147 = AXIS2_PLACEMENT_3D ( 'NONE', #299, #23, #243 ) ;
#148 = VERTEX_POINT ( 'NONE', #30 ) ;
#149 = AXIS2_PLACEMENT_3D ( 'NONE', #261, #36, #103 ) ;
#150 = LOCAL_TIME ( 10, 9, 50.00000000000000000, #297 ) ;
#151 = EDGE_CURVE ( 'NONE', #14, #235, #155, .T. ) ;
#152 = EDGE_CURVE ( 'NONE', #88, #32, #1, .T. ) ;
#153 = CARTESIAN_POINT ( 'NONE',  ( -4.999999999999999112, 5.000000000000001776, -5.000000000000000000 ) ) ;
#154 = DIRECTION ( 'NONE',  ( -0.7071067811865474617, 0.7071067811865475727, 0.000000000000000000 ) ) ;
#155 = LINE ( 'NONE', #31, #232 ) ;
#156 = EDGE_LOOP ( 'NONE', ( #25, #185, #249, #283 ) ) ;
#157 = VERTEX_POINT ( 'NONE', #191 ) ;
#158 = AXIS2_PLACEMENT_3D ( 'NONE', #168, #43, #221 ) ;
#159 = ORIENTED_EDGE ( 'NONE', *, *, #229, .F. ) ;
#160 = PERSON_AND_ORGANIZATION_ROLE ( 'design_owner' ) ;
#161 = PLANE ( 'NONE',  #2 ) ;
#162 = EDGE_LOOP ( 'NONE', ( #174, #15, #110, #288 ) ) ;
#163 = CALENDAR_DATE ( 2020, 22, 12 ) ;
#164 = CARTESIAN_POINT ( 'NONE',  ( 5.000000000000002665, 5.000000000000000000, 5.000000000000000000 ) ) ;
#165 = COORDINATED_UNIVERSAL_TIME_OFFSET ( 8, 0, .AHEAD. ) ;
#166 = EDGE_CURVE ( 'NONE', #14, #187, #93, .T. ) ;
#167 = DIRECTION ( 'NONE',  ( -0.000000000000000000, 0.000000000000000000, -1.000000000000000000 ) ) ;
#168 = CARTESIAN_POINT ( 'NONE',  ( 5.000000000000002665, 5.000000000000000000, 5.000000000000000000 ) ) ;
#169 = CARTESIAN_POINT ( 'NONE',  ( 5.000000000000002665, 5.000000000000000000, -5.000000000000000000 ) ) ;
#170 = VECTOR ( 'NONE', #208, 1000.000000000000000 ) ;
#171 = CARTESIAN_POINT ( 'NONE',  ( 5.000000000000002665, 5.000000000000000000, -5.000000000000000000 ) ) ;
#172 = COORDINATED_UNIVERSAL_TIME_OFFSET ( 8, 0, .AHEAD. ) ;
#173 = APPROVAL_STATUS ( 'not_yet_approved' ) ;
#174 = ORIENTED_EDGE ( 'NONE', *, *, #12, .F. ) ;
#175 = VECTOR ( 'NONE', #300, 1000.000000000000000 ) ;
#176 = LINE ( 'NONE', #28, #202 ) ;
#177 = PLANE ( 'NONE',  #85 ) ;
#178 = VECTOR ( 'NONE', #186, 1000.000000000000000 ) ;
#179 = FACE_OUTER_BOUND ( 'NONE', #285, .T. ) ;
#180 = VERTEX_POINT ( 'NONE', #270 ) ;
#181 = VECTOR ( 'NONE', #72, 1000.000000000000000 ) ;
#182 = ORIENTED_EDGE ( 'NONE', *, *, #201, .T. ) ;
#183 = CARTESIAN_POINT ( 'NONE',  ( -4.999999999999999112, -5.000000000000000000, -5.000000000000000000 ) ) ;
#184 = PRODUCT ( 'BK7-NPBSC-10-900-1200', 'BK7-NPBSC-10-900-1200', '', ( #97 ) ) ;
#185 = ORIENTED_EDGE ( 'NONE', *, *, #151, .F. ) ;
#186 = DIRECTION ( 'NONE',  ( -0.000000000000000000, -0.000000000000000000, -1.000000000000000000 ) ) ;
#187 = VERTEX_POINT ( 'NONE', #124 ) ;
#188 =( LENGTH_UNIT ( ) NAMED_UNIT ( * ) SI_UNIT ( .MILLI., .METRE. ) );
#189 = FACE_OUTER_BOUND ( 'NONE', #111, .T. ) ;
#190 = APPROVAL_STATUS ( 'not_yet_approved' ) ;
#191 = CARTESIAN_POINT ( 'NONE',  ( 5.000000000000002665, 5.000000000000000000, -5.000000000000000000 ) ) ;
#192 = DIRECTION ( 'NONE',  ( -0.000000000000000000, -0.000000000000000000, -1.000000000000000000 ) ) ;
#193 = LOCAL_TIME ( 10, 9, 50.00000000000000000, #172 ) ;
#194 = PERSON_AND_ORGANIZATION ( #106, #101 ) ;
#195 = CARTESIAN_POINT ( 'NONE',  ( 5.000000000000000888, -5.000000000000000000, -5.000000000000000000 ) ) ;
#196 = CARTESIAN_POINT ( 'NONE',  ( -4.999999999999999112, -5.000000000000000000, 5.000000000000000000 ) ) ;
#197 = CC_DESIGN_SECURITY_CLASSIFICATION ( #246, ( #41 ) ) ;
#198 = CALENDAR_DATE ( 2020, 22, 12 ) ;
#199 = ORIENTED_EDGE ( 'NONE', *, *, #76, .T. ) ;
#200 = VERTEX_POINT ( 'NONE', #245 ) ;
#201 = EDGE_CURVE ( 'NONE', #187, #148, #21, .T. ) ;
#202 = VECTOR ( 'NONE', #104, 1000.000000000000000 ) ;
#203 = CARTESIAN_POINT ( 'NONE',  ( 0.000000000000000000, 0.000000000000000000, 5.000000000000000000 ) ) ;
#204 = DIRECTION ( 'NONE',  ( 2.220446049250313081E-16, 1.000000000000000000, 0.000000000000000000 ) ) ;
#205 = CARTESIAN_POINT ( 'NONE',  ( 5.000000000000000888, 5.000000000000001776, 5.000000000000000000 ) ) ;
#206 = EDGE_LOOP ( 'NONE', ( #311, #108, #310 ) ) ;
#207 = APPROVAL ( #214, 'UNSPECIFIED' ) ;
#208 = DIRECTION ( 'NONE',  ( -0.7071067811865475727, -0.7071067811865474617, 0.000000000000000000 ) ) ;
#209 = ORIENTED_EDGE ( 'NONE', *, *, #255, .F. ) ;
#210 = VECTOR ( 'NONE', #167, 1000.000000000000000 ) ;
#211 = DIRECTION ( 'NONE',  ( 2.220446049250313081E-16, 1.000000000000000000, 0.000000000000000000 ) ) ;
#212 = ADVANCED_FACE ( 'NONE', ( #320 ), #47, .F. ) ;
#213 = EDGE_LOOP ( 'NONE', ( #182, #91, #281 ) ) ;
#214 = APPROVAL_STATUS ( 'not_yet_approved' ) ;
#215 = CARTESIAN_POINT ( 'NONE',  ( 5.000000000000002665, 5.000000000000000000, 5.000000000000000000 ) ) ;
#216 = PLANE ( 'NONE',  #319 ) ;
#217 = DATE_TIME_ROLE ( 'creation_date' ) ;
#218 = LINE ( 'NONE', #317, #175 ) ;
#219 = FACE_OUTER_BOUND ( 'NONE', #50, .T. ) ;
#220 = CC_DESIGN_APPROVAL ( #284, ( #246 ) ) ;
#221 = DIRECTION ( 'NONE',  ( -1.734723475976807094E-16, -1.000000000000000000, 0.000000000000000000 ) ) ;
#222 = DATE_AND_TIME ( #125, #193 ) ;
#223 = VECTOR ( 'NONE', #81, 1000.000000000000000 ) ;
#224 = SECURITY_CLASSIFICATION_LEVEL ( 'unclassified' ) ;
#225 = EDGE_CURVE ( 'NONE', #109, #88, #75, .T. ) ;
#226 = SHAPE_DEFINITION_REPRESENTATION ( #257, #303 ) ;
#227 = CLOSED_SHELL ( 'NONE', ( #57, #212, #316, #59, #27 ) ) ;
#228 = DIRECTION ( 'NONE',  ( -0.000000000000000000, 0.000000000000000000, 1.000000000000000000 ) ) ;
#229 = EDGE_CURVE ( 'NONE', #235, #157, #68, .T. ) ;
#230 = DIRECTION ( 'NONE',  ( -0.000000000000000000, 0.000000000000000000, -1.000000000000000000 ) ) ;
#231 = ORIENTED_EDGE ( 'NONE', *, *, #276, .F. ) ;
#232 = VECTOR ( 'NONE', #130, 1000.000000000000000 ) ;
#233 = ORIENTED_EDGE ( 'NONE', *, *, #271, .F. ) ;
#234 = VECTOR ( 'NONE', #141, 1000.000000000000000 ) ;
#235 = VERTEX_POINT ( 'NONE', #195 ) ;
#236 = CARTESIAN_POINT ( 'NONE',  ( 5.000000000000000888, 5.000000000000001776, 5.000000000000000000 ) ) ;
#237 = LINE ( 'NONE', #105, #67 ) ;
#238 = FACE_OUTER_BOUND ( 'NONE', #84, .T. ) ;
#239 = AXIS2_PLACEMENT_3D ( 'NONE', #71, #315, #92 ) ;
#240 = CARTESIAN_POINT ( 'NONE',  ( 5.000000000000002665, 5.000000000000000000, 5.000000000000000000 ) ) ;
#241 = CALENDAR_DATE ( 2020, 22, 12 ) ;
#242 = LINE ( 'NONE', #196, #123 ) ;
#243 = DIRECTION ( 'NONE',  ( 0.000000000000000000, -0.000000000000000000, 1.000000000000000000 ) ) ;
#244 = APPROVAL_DATE_TIME ( #46, #3 ) ;
#245 = CARTESIAN_POINT ( 'NONE',  ( -5.000000000000000888, -4.999999999999998224, 5.000000000000000000 ) ) ;
#246 = SECURITY_CLASSIFICATION ( '', '', #224 ) ;
#247 = DATE_TIME_ROLE ( 'classification_date' ) ;
#248 = CC_DESIGN_DATE_AND_TIME_ASSIGNMENT ( #265, #217, ( #298 ) ) ;
#249 = ORIENTED_EDGE ( 'NONE', *, *, #266, .F. ) ;
#250 = CC_DESIGN_APPROVAL ( #207, ( #41 ) ) ;
#251 = PLANE ( 'NONE',  #113 ) ;
#252 = VECTOR ( 'NONE', #17, 1000.000000000000000 ) ;
#253 = FACE_OUTER_BOUND ( 'NONE', #213, .T. ) ;
#254 = FACE_OUTER_BOUND ( 'NONE', #162, .T. ) ;
#255 = EDGE_CURVE ( 'NONE', #157, #13, #42, .T. ) ;
#256 = ORIENTED_EDGE ( 'NONE', *, *, #126, .T. ) ;
#257 = PRODUCT_DEFINITION_SHAPE ( 'NONE', 'NONE',  #298 ) ;
#258 = ORIENTED_EDGE ( 'NONE', *, *, #73, .F. ) ;
#259 = VECTOR ( 'NONE', #144, 1000.000000000000000 ) ;
#260 = CALENDAR_DATE ( 2020, 22, 12 ) ;
#261 = CARTESIAN_POINT ( 'NONE',  ( 0.000000000000000000, 0.000000000000000000, -5.000000000000000000 ) ) ;
#262 = ORIENTED_EDGE ( 'NONE', *, *, #142, .F. ) ;
#263 = COORDINATED_UNIVERSAL_TIME_OFFSET ( 8, 0, .AHEAD. ) ;
#264 = DIRECTION ( 'NONE',  ( 1.000000000000000000, 0.000000000000000000, 0.000000000000000000 ) ) ;
#265 = DATE_AND_TIME ( #260, #282 ) ;
#266 = EDGE_CURVE ( 'NONE', #148, #14, #94, .T. ) ;
#267 = AXIS2_PLACEMENT_3D ( 'NONE', #116, #66, #122 ) ;
#268 = DIRECTION ( 'NONE',  ( 1.734723475976807094E-16, 1.000000000000000000, -0.000000000000000000 ) ) ;
#269 = DIRECTION ( 'NONE',  ( 0.000000000000000000, -0.000000000000000000, 1.000000000000000000 ) ) ;
#270 = CARTESIAN_POINT ( 'NONE',  ( -5.000000000000000888, -4.999999999999998224, -5.000000000000000000 ) ) ;
#271 = EDGE_CURVE ( 'NONE', #148, #13, #242, .T. ) ;
#272 = ORIENTED_EDGE ( 'NONE', *, *, #73, .T. ) ;
#273 = CC_DESIGN_PERSON_AND_ORGANIZATION_ASSIGNMENT ( #119, #293, ( #41 ) ) ;
#274 = APPROVAL_PERSON_ORGANIZATION ( #40, #207, #35 ) ;
#275 = MANIFOLD_SOLID_BREP ( '¾µÏ', #312 ) ;
#276 = EDGE_CURVE ( 'NONE', #109, #33, #218, .T. ) ;
#277 = FACE_OUTER_BOUND ( 'NONE', #206, .T. ) ;
#278 = CC_DESIGN_PERSON_AND_ORGANIZATION_ASSIGNMENT ( #22, #143, ( #298 ) ) ;
#279 = DIRECTION ( 'NONE',  ( 1.000000000000000000, -2.220446049250313081E-16, 0.000000000000000000 ) ) ;
#280 = DIRECTION ( 'NONE',  ( -0.000000000000000000, 0.000000000000000000, 1.000000000000000000 ) ) ;
#281 = ORIENTED_EDGE ( 'NONE', *, *, #166, .T. ) ;
#282 = LOCAL_TIME ( 10, 9, 50.00000000000000000, #165 ) ;
#283 = ORIENTED_EDGE ( 'NONE', *, *, #271, .T. ) ;
#284 = APPROVAL ( #173, 'UNSPECIFIED' ) ;
#285 = EDGE_LOOP ( 'NONE', ( #209, #159, #58 ) ) ;
#286 = EDGE_LOOP ( 'NONE', ( #34, #231, #262 ) ) ;
#287 = LOCAL_TIME ( 10, 9, 50.00000000000000000, #48 ) ;
#288 = ORIENTED_EDGE ( 'NONE', *, *, #225, .T. ) ;
#289 = APPLICATION_PROTOCOL_DEFINITION ( 'international standard', 'config_control_design', 1994, #114 ) ;
#290 = PLANE ( 'NONE',  #137 ) ;
#291 = ADVANCED_FACE ( 'NONE', ( #121 ), #216, .T. ) ;
#292 = CARTESIAN_POINT ( 'NONE',  ( -4.999999999999999112, 5.000000000000001776, 5.000000000000000000 ) ) ;
#293 = PERSON_AND_ORGANIZATION_ROLE ( 'creator' ) ;
#294 = ADVANCED_FACE ( 'NONE', ( #219 ), #146, .F. ) ;
#295 =( GEOMETRIC_REPRESENTATION_CONTEXT ( 3 ) GLOBAL_UNCERTAINTY_ASSIGNED_CONTEXT ( ( #321 ) ) GLOBAL_UNIT_ASSIGNED_CONTEXT ( ( #188, #318, #120 ) ) REPRESENTATION_CONTEXT ( 'NONE', 'WORKASPACE' ) );
#296 = CARTESIAN_POINT ( 'NONE',  ( -4.999999999999999112, -5.000000000000000000, 5.000000000000000000 ) ) ;
#297 = COORDINATED_UNIVERSAL_TIME_OFFSET ( 8, 0, .AHEAD. ) ;
#298 = PRODUCT_DEFINITION ( 'UNKNOWN', '', #41, #102 ) ;
#299 = CARTESIAN_POINT ( 'NONE',  ( -4.999999999999999112, -5.000000000000000000, 5.000000000000000000 ) ) ;
#300 = DIRECTION ( 'NONE',  ( 1.000000000000000000, -4.857225732735059864E-17, 0.000000000000000000 ) ) ;
#301 = APPROVAL_ROLE ( '' ) ;
#302 = ORIENTED_EDGE ( 'NONE', *, *, #229, .T. ) ;
#303 = ADVANCED_BREP_SHAPE_REPRESENTATION ( 'BK7-NPBSC-10-900-1200', ( #56, #275, #239 ), #295 ) ;
#304 = EDGE_LOOP ( 'NONE', ( #313, #258, #256, #199 ) ) ;
#305 = FACE_OUTER_BOUND ( 'NONE', #304, .T. ) ;
#306 = LINE ( 'NONE', #39, #29 ) ;
#307 = CARTESIAN_POINT ( 'NONE',  ( -5.000000000000000888, -4.999999999999998224, 5.000000000000000000 ) ) ;
#308 = DIRECTION ( 'NONE',  ( 0.7071067811865475727, 0.7071067811865474617, 0.000000000000000000 ) ) ;
#309 = ORIENTED_EDGE ( 'NONE', *, *, #61, .T. ) ;
#310 = ORIENTED_EDGE ( 'NONE', *, *, #152, .T. ) ;
#311 = ORIENTED_EDGE ( 'NONE', *, *, #26, .T. ) ;
#312 = CLOSED_SHELL ( 'NONE', ( #89, #145, #294, #291, #87 ) ) ;
#313 = ORIENTED_EDGE ( 'NONE', *, *, #26, .F. ) ;
#314 = LINE ( 'NONE', #8, #11 ) ;
#315 = DIRECTION ( 'NONE',  ( 0.000000000000000000, 0.000000000000000000, 1.000000000000000000 ) ) ;
#316 = ADVANCED_FACE ( 'NONE', ( #238 ), #140, .F. ) ;
#317 = CARTESIAN_POINT ( 'NONE',  ( 5.000000000000000888, 5.000000000000001776, 5.000000000000000000 ) ) ;
#318 =( NAMED_UNIT ( * ) PLANE_ANGLE_UNIT ( ) SI_UNIT ( $, .RADIAN. ) );
#319 = AXIS2_PLACEMENT_3D ( 'NONE', #70, #269, #45 ) ;
#320 = FACE_OUTER_BOUND ( 'NONE', #156, .T. ) ;
#321 = UNCERTAINTY_MEASURE_WITH_UNIT (LENGTH_MEASURE( 1.000000000000000082E-05 ), #188, 'distance_accuracy_value', 'NONE');
ENDSEC;
END-ISO-10303-21;
